ISO-10303-21;
HEADER;
FILE_DESCRIPTION (( 'STEP AP203' ),
    '1' );
FILE_NAME ('STP-201-021-4A400-001(WF-1.25-1.75).STEP',
    '2021-07-14T05:12:25',
    ( '' ),
    ( '' ),
    'SwSTEP 2.0',
    'SolidWorks 2017',
    '' );
FILE_SCHEMA (( 'CONFIG_CONTROL_DESIGN' ));
ENDSEC;

DATA;
#1 = DIRECTION ( 'NONE',  ( 1.000000000000000000, 0.0000000000000000000, 0.0000000000000000000 ) ) ;
#2 = ORIENTED_EDGE ( 'NONE', *, *, #210, .T. ) ;
#3 = AXIS2_PLACEMENT_3D ( 'NONE', #245, #30, #202 ) ;
#4 = LOCAL_TIME ( 13, 12, 25.00000000000000000, #139 ) ;
#5 = AXIS2_PLACEMENT_3D ( 'NONE', #20, #185, #128 ) ;
#6 = CC_DESIGN_PERSON_AND_ORGANIZATION_ASSIGNMENT ( #138, #190, ( #224 ) ) ;
#7 = ORIENTED_EDGE ( 'NONE', *, *, #154, .T. ) ;
#8 = DATE_AND_TIME ( #62, #106 ) ;
#9 = FACE_OUTER_BOUND ( 'NONE', #158, .T. ) ;
#10 = COORDINATED_UNIVERSAL_TIME_OFFSET ( 8, 0, .AHEAD. ) ;
#11 = DIRECTION ( 'NONE',  ( -0.0000000000000000000, -0.0000000000000000000, 1.000000000000000000 ) ) ;
#12 = CARTESIAN_POINT ( 'NONE',  ( 0.0000000000000000000, 0.0000000000000000000, 0.0000000000000000000 ) ) ;
#13 = ORIENTED_EDGE ( 'NONE', *, *, #203, .T. ) ;
#14 = ORGANIZATION ( 'UNSPECIFIED', 'UNSPECIFIED', '' ) ;
#15 = EDGE_CURVE ( 'NONE', #249, #107, #98, .T. ) ;
#16 = AXIS2_PLACEMENT_3D ( 'NONE', #112, #18, #165 ) ;
#17 = DIRECTION ( 'NONE',  ( -0.0000000000000000000, -0.0000000000000000000, 1.000000000000000000 ) ) ;
#18 = DIRECTION ( 'NONE',  ( -0.0000000000000000000, -0.0000000000000000000, 1.000000000000000000 ) ) ;
#19 = CARTESIAN_POINT ( 'NONE',  ( -19.05000000000000100, 2.332952152375708000E-015, 0.0000000000000000000 ) ) ;
#20 = CARTESIAN_POINT ( 'NONE',  ( 0.0000000000000000000, 0.0000000000000000000, 0.0000000000000000000 ) ) ;
#21 = DIRECTION ( 'NONE',  ( -0.0000000000000000000, -0.0000000000000000000, 1.000000000000000000 ) ) ;
#22 = APPROVAL_STATUS ( 'not_yet_approved' ) ;
#23 = EDGE_LOOP ( 'NONE', ( #134, #153 ) ) ;
#24 = APPROVAL_ROLE ( '' ) ;
#25 = APPROVAL_ROLE ( '' ) ;
#26 = CYLINDRICAL_SURFACE ( 'NONE', #241, 19.05000000000000100 ) ;
#27 = AXIS2_PLACEMENT_3D ( 'NONE', #184, #77, #161 ) ;
#28 = COORDINATED_UNIVERSAL_TIME_OFFSET ( 8, 0, .AHEAD. ) ;
#29 = ORIENTED_EDGE ( 'NONE', *, *, #195, .T. ) ;
#30 = DIRECTION ( 'NONE',  ( -0.0000000000000000000, -0.0000000000000000000, 1.000000000000000000 ) ) ;
#31 = CARTESIAN_POINT ( 'NONE',  ( 19.05000000000000100, 0.0000000000000000000, -44.45000000000000300 ) ) ;
#32 = APPROVAL ( #22, 'UNSPECIFIED' ) ;
#33 = CARTESIAN_POINT ( 'NONE',  ( 0.0000000000000000000, 19.05000000000000100, -57.15000000000000600 ) ) ;
#34 = PERSON_AND_ORGANIZATION ( #119, #14 ) ;
#35 = EDGE_CURVE ( 'NONE', #42, #178, #191, .T. ) ;
#36 = CARTESIAN_POINT ( 'NONE',  ( 0.0000000000000000000, 0.0000000000000000000, -57.15000000000000600 ) ) ;
#37 =( GEOMETRIC_REPRESENTATION_CONTEXT ( 3 ) GLOBAL_UNCERTAINTY_ASSIGNED_CONTEXT ( ( #76 ) ) GLOBAL_UNIT_ASSIGNED_CONTEXT ( ( #41, #84, #189 ) ) REPRESENTATION_CONTEXT ( 'NONE', 'WORKASPACE' ) );
#38 = CARTESIAN_POINT ( 'NONE',  ( -7.937500000000000000, 9.720633968232116200E-016, 0.0000000000000000000 ) ) ;
#39 = CALENDAR_DATE ( 2021, 14, 7 ) ;
#40 = APPROVAL_STATUS ( 'not_yet_approved' ) ;
#41 =( LENGTH_UNIT ( ) NAMED_UNIT ( * ) SI_UNIT ( .MILLI., .METRE. ) );
#42 = VERTEX_POINT ( 'NONE', #31 ) ;
#43 = APPROVAL_DATE_TIME ( #55, #136 ) ;
#44 = VERTEX_POINT ( 'NONE', #248 ) ;
#45 = CC_DESIGN_APPROVAL ( #87, ( #199 ) ) ;
#46 = DATE_AND_TIME ( #220, #4 ) ;
#47 = ADVANCED_FACE ( 'NONE', ( #48 ), #227, .T. ) ;
#48 = FACE_OUTER_BOUND ( 'NONE', #50, .T. ) ;
#49 = SHAPE_DEFINITION_REPRESENTATION ( #125, #230 ) ;
#50 = EDGE_LOOP ( 'NONE', ( #160, #105, #2, #85 ) ) ;
#51 = APPROVAL_DATE_TIME ( #250, #87 ) ;
#52 = CC_DESIGN_APPROVAL ( #136, ( #246 ) ) ;
#53 = CARTESIAN_POINT ( 'NONE',  ( 7.937500000000000000, 0.0000000000000000000, 0.0000000000000000000 ) ) ;
#54 = CARTESIAN_POINT ( 'NONE',  ( 0.0000000000000000000, 0.0000000000000000000, -44.45000000000000300 ) ) ;
#55 = DATE_AND_TIME ( #243, #164 ) ;
#56 = LINE ( 'NONE', #38, #215 ) ;
#57 = DIRECTION ( 'NONE',  ( 1.000000000000000000, 0.0000000000000000000, 0.0000000000000000000 ) ) ;
#58 = DIRECTION ( 'NONE',  ( -0.0000000000000000000, -0.0000000000000000000, 1.000000000000000000 ) ) ;
#59 = DATE_TIME_ROLE ( 'creation_date' ) ;
#60 = APPLICATION_PROTOCOL_DEFINITION ( 'international standard', 'config_control_design', 1994, #255 ) ;
#61 = EDGE_LOOP ( 'NONE', ( #238, #124 ) ) ;
#62 = CALENDAR_DATE ( 2021, 14, 7 ) ;
#63 = EDGE_CURVE ( 'NONE', #107, #249, #149, .T. ) ;
#64 = FACE_OUTER_BOUND ( 'NONE', #61, .T. ) ;
#65 = PERSON_AND_ORGANIZATION ( #119, #14 ) ;
#66 = ORIENTED_EDGE ( 'NONE', *, *, #152, .F. ) ;
#67 = LINE ( 'NONE', #19, #212 ) ;
#68 = AXIS2_PLACEMENT_3D ( 'NONE', #141, #200, #142 ) ;
#69 = CIRCLE ( 'NONE', #16, 7.937500000000000000 ) ;
#70 = AXIS2_PLACEMENT_3D ( 'NONE', #148, #95, #181 ) ;
#71 = ORIENTED_EDGE ( 'NONE', *, *, #15, .T. ) ;
#72 = ADVANCED_FACE ( 'NONE', ( #196 ), #110, .T. ) ;
#73 = DIRECTION ( 'NONE',  ( -0.0000000000000000000, -0.0000000000000000000, 1.000000000000000000 ) ) ;
#74 = DIRECTION ( 'NONE',  ( -0.0000000000000000000, -0.0000000000000000000, 1.000000000000000000 ) ) ;
#75 = EDGE_CURVE ( 'NONE', #102, #249, #56, .T. ) ;
#76 = UNCERTAINTY_MEASURE_WITH_UNIT (LENGTH_MEASURE( 1.000000000000000100E-005 ), #41, 'distance_accuracy_value', 'NONE');
#77 = DIRECTION ( 'NONE',  ( -0.0000000000000000000, -0.0000000000000000000, 1.000000000000000000 ) ) ;
#78 = CIRCLE ( 'NONE', #70, 19.05000000000000100 ) ;
#79 = ORIENTED_EDGE ( 'NONE', *, *, #75, .T. ) ;
#80 = APPROVAL_DATE_TIME ( #133, #32 ) ;
#81 = EDGE_LOOP ( 'NONE', ( #7, #91, #183, #115 ) ) ;
#82 = APPROVAL_STATUS ( 'not_yet_approved' ) ;
#83 = AXIS2_PLACEMENT_3D ( 'NONE', #54, #74, #166 ) ;
#84 =( NAMED_UNIT ( * ) PLANE_ANGLE_UNIT ( ) SI_UNIT ( $, .RADIAN. ) );
#85 = ORIENTED_EDGE ( 'NONE', *, *, #15, .F. ) ;
#86 = AXIS2_PLACEMENT_3D ( 'NONE', #130, #132, #111 ) ;
#87 = APPROVAL ( #40, 'UNSPECIFIED' ) ;
#88 = COORDINATED_UNIVERSAL_TIME_OFFSET ( 8, 0, .AHEAD. ) ;
#89 = DIRECTION ( 'NONE',  ( -0.0000000000000000000, -0.0000000000000000000, 1.000000000000000000 ) ) ;
#90 = AXIS2_PLACEMENT_3D ( 'NONE', #12, #89, #126 ) ;
#91 = ORIENTED_EDGE ( 'NONE', *, *, #223, .T. ) ;
#92 = CARTESIAN_POINT ( 'NONE',  ( 19.05000000000000100, 0.0000000000000000000, -57.15000000000000600 ) ) ;
#93 = AXIS2_PLACEMENT_3D ( 'NONE', #228, #96, #229 ) ;
#94 = DIRECTION ( 'NONE',  ( -0.0000000000000000000, -0.0000000000000000000, 1.000000000000000000 ) ) ;
#95 = DIRECTION ( 'NONE',  ( -0.0000000000000000000, -0.0000000000000000000, 1.000000000000000000 ) ) ;
#96 = DIRECTION ( 'NONE',  ( 0.0000000000000000000, 0.0000000000000000000, -1.000000000000000000 ) ) ;
#97 = PERSON_AND_ORGANIZATION_ROLE ( 'creator' ) ;
#98 = CIRCLE ( 'NONE', #121, 7.937500000000000000 ) ;
#99 = LOCAL_TIME ( 13, 12, 25.00000000000000000, #155 ) ;
#100 = ORIENTED_EDGE ( 'NONE', *, *, #193, .F. ) ;
#101 = AXIS2_PLACEMENT_3D ( 'NONE', #127, #169, #1 ) ;
#102 = VERTEX_POINT ( 'NONE', #104 ) ;
#103 = CALENDAR_DATE ( 2021, 14, 7 ) ;
#104 = CARTESIAN_POINT ( 'NONE',  ( -7.937500000000000000, 9.720633968232116200E-016, -44.45000000000000300 ) ) ;
#105 = ORIENTED_EDGE ( 'NONE', *, *, #116, .T. ) ;
#106 = LOCAL_TIME ( 13, 12, 25.00000000000000000, #88 ) ;
#107 = VERTEX_POINT ( 'NONE', #204 ) ;
#108 = CC_DESIGN_SECURITY_CLASSIFICATION ( #224, ( #246 ) ) ;
#109 = CARTESIAN_POINT ( 'NONE',  ( -19.05000000000000100, 2.332952152375708000E-015, -44.45000000000000300 ) ) ;
#110 = CYLINDRICAL_SURFACE ( 'NONE', #90, 19.05000000000000100 ) ;
#111 = DIRECTION ( 'NONE',  ( 1.000000000000000000, 0.0000000000000000000, 0.0000000000000000000 ) ) ;
#112 = CARTESIAN_POINT ( 'NONE',  ( 0.0000000000000000000, 0.0000000000000000000, -44.45000000000000300 ) ) ;
#113 = MECHANICAL_CONTEXT ( 'NONE', #151, 'mechanical' ) ;
#114 = PERSON_AND_ORGANIZATION_ROLE ( 'design_supplier' ) ;
#115 = ORIENTED_EDGE ( 'NONE', *, *, #203, .F. ) ;
#116 = EDGE_CURVE ( 'NONE', #102, #44, #170, .T. ) ;
#117 = VECTOR ( 'NONE', #21, 1000.000000000000000 ) ;
#118 = AXIS2_PLACEMENT_3D ( 'NONE', #36, #58, #131 ) ;
#119 = PERSON ( 'UNSPECIFIED', 'UNSPECIFIED', 'UNSPECIFIED', ('UNSPECIFIED'), ('UNSPECIFIED'), ('UNSPECIFIED') ) ;
#120 = FACE_OUTER_BOUND ( 'NONE', #81, .T. ) ;
#121 = AXIS2_PLACEMENT_3D ( 'NONE', #123, #73, #179 ) ;
#122 = CARTESIAN_POINT ( 'NONE',  ( 0.0000000000000000000, 0.0000000000000000000, -44.45000000000000300 ) ) ;
#123 = CARTESIAN_POINT ( 'NONE',  ( 0.0000000000000000000, 0.0000000000000000000, 0.0000000000000000000 ) ) ;
#124 = ORIENTED_EDGE ( 'NONE', *, *, #152, .T. ) ;
#125 = PRODUCT_DEFINITION_SHAPE ( 'NONE', 'NONE',  #199 ) ;
#126 = DIRECTION ( 'NONE',  ( 1.000000000000000000, 0.0000000000000000000, 0.0000000000000000000 ) ) ;
#127 = CARTESIAN_POINT ( 'NONE',  ( 0.0000000000000000000, 0.0000000000000000000, 0.0000000000000000000 ) ) ;
#128 = DIRECTION ( 'NONE',  ( -1.000000000000000000, 0.0000000000000000000, -0.0000000000000000000 ) ) ;
#129 = VERTEX_POINT ( 'NONE', #92 ) ;
#130 = CARTESIAN_POINT ( 'NONE',  ( 0.0000000000000000000, 0.0000000000000000000, -57.15000000000000600 ) ) ;
#131 = DIRECTION ( 'NONE',  ( 1.000000000000000000, 0.0000000000000000000, 0.0000000000000000000 ) ) ;
#132 = DIRECTION ( 'NONE',  ( -0.0000000000000000000, -0.0000000000000000000, 1.000000000000000000 ) ) ;
#133 = DATE_AND_TIME ( #39, #167 ) ;
#134 = ORIENTED_EDGE ( 'NONE', *, *, #195, .F. ) ;
#135 = PERSON_AND_ORGANIZATION_ROLE ( 'creator' ) ;
#136 = APPROVAL ( #82, 'UNSPECIFIED' ) ;
#137 = VECTOR ( 'NONE', #17, 1000.000000000000000 ) ;
#138 = PERSON_AND_ORGANIZATION ( #119, #14 ) ;
#139 = COORDINATED_UNIVERSAL_TIME_OFFSET ( 8, 0, .AHEAD. ) ;
#140 = CC_DESIGN_DATE_AND_TIME_ASSIGNMENT ( #8, #236, ( #224 ) ) ;
#141 = CARTESIAN_POINT ( 'NONE',  ( 0.0000000000000000000, 0.0000000000000000000, 0.0000000000000000000 ) ) ;
#142 = DIRECTION ( 'NONE',  ( 1.000000000000000000, 0.0000000000000000000, 0.0000000000000000000 ) ) ;
#143 = ORIENTED_EDGE ( 'NONE', *, *, #154, .F. ) ;
#144 = FACE_BOUND ( 'NONE', #23, .T. ) ;
#145 = PLANE ( 'NONE',  #237 ) ;
#146 = ADVANCED_FACE ( 'NONE', ( #120 ), #26, .T. ) ;
#147 = CARTESIAN_POINT ( 'NONE',  ( -7.937500000000000000, 9.720633968232116200E-016, 0.0000000000000000000 ) ) ;
#148 = CARTESIAN_POINT ( 'NONE',  ( 0.0000000000000000000, 0.0000000000000000000, -44.45000000000000300 ) ) ;
#149 = CIRCLE ( 'NONE', #68, 7.937500000000000000 ) ;
#150 = ORIENTED_EDGE ( 'NONE', *, *, #63, .F. ) ;
#151 = APPLICATION_CONTEXT ( 'configuration controlled 3d designs of mechanical parts and assemblies' ) ;
#152 = EDGE_CURVE ( 'NONE', #178, #42, #78, .T. ) ;
#153 = ORIENTED_EDGE ( 'NONE', *, *, #116, .F. ) ;
#154 = EDGE_CURVE ( 'NONE', #129, #221, #219, .T. ) ;
#155 = COORDINATED_UNIVERSAL_TIME_OFFSET ( 8, 0, .AHEAD. ) ;
#156 = FACE_OUTER_BOUND ( 'NONE', #234, .T. ) ;
#157 = APPROVAL_PERSON_ORGANIZATION ( #235, #87, #24 ) ;
#158 = EDGE_LOOP ( 'NONE', ( #244, #71 ) ) ;
#159 = CC_DESIGN_PERSON_AND_ORGANIZATION_ASSIGNMENT ( #34, #214, ( #175 ) ) ;
#160 = ORIENTED_EDGE ( 'NONE', *, *, #75, .F. ) ;
#161 = DIRECTION ( 'NONE',  ( 1.000000000000000000, 0.0000000000000000000, 0.0000000000000000000 ) ) ;
#162 = CARTESIAN_POINT ( 'NONE',  ( 0.0000000000000000000, 0.0000000000000000000, 0.0000000000000000000 ) ) ;
#163 = CIRCLE ( 'NONE', #118, 19.05000000000000100 ) ;
#164 = LOCAL_TIME ( 13, 12, 25.00000000000000000, #10 ) ;
#165 = DIRECTION ( 'NONE',  ( 1.000000000000000000, 0.0000000000000000000, 0.0000000000000000000 ) ) ;
#166 = DIRECTION ( 'NONE',  ( 1.000000000000000000, 0.0000000000000000000, 0.0000000000000000000 ) ) ;
#167 = LOCAL_TIME ( 13, 12, 25.00000000000000000, #28 ) ;
#168 = EDGE_LOOP ( 'NONE', ( #232, #174, #13, #66 ) ) ;
#169 = DIRECTION ( 'NONE',  ( 0.0000000000000000000, 0.0000000000000000000, 1.000000000000000000 ) ) ;
#170 = CIRCLE ( 'NONE', #83, 7.937500000000000000 ) ;
#171 = CYLINDRICAL_SURFACE ( 'NONE', #27, 7.937500000000000000 ) ;
#172 = SECURITY_CLASSIFICATION_LEVEL ( 'unclassified' ) ;
#173 = AXIS2_PLACEMENT_3D ( 'NONE', #122, #11, #242 ) ;
#174 = ORIENTED_EDGE ( 'NONE', *, *, #193, .T. ) ;
#175 = PRODUCT ( 'STP-201-021-4A400-001(WF-1.25-1.75)', 'STP-201-021-4A400-001(WF-1.25-1.75)', '', ( #113 ) ) ;
#176 = PERSON_AND_ORGANIZATION ( #119, #14 ) ;
#177 = ADVANCED_FACE ( 'NONE', ( #156 ), #145, .F. ) ;
#178 = VERTEX_POINT ( 'NONE', #109 ) ;
#179 = DIRECTION ( 'NONE',  ( 1.000000000000000000, 0.0000000000000000000, 0.0000000000000000000 ) ) ;
#180 = CC_DESIGN_PERSON_AND_ORGANIZATION_ASSIGNMENT ( #197, #97, ( #246 ) ) ;
#181 = DIRECTION ( 'NONE',  ( 1.000000000000000000, 0.0000000000000000000, 0.0000000000000000000 ) ) ;
#182 = ORIENTED_EDGE ( 'NONE', *, *, #210, .F. ) ;
#183 = ORIENTED_EDGE ( 'NONE', *, *, #35, .F. ) ;
#184 = CARTESIAN_POINT ( 'NONE',  ( 0.0000000000000000000, 0.0000000000000000000, 0.0000000000000000000 ) ) ;
#185 = DIRECTION ( 'NONE',  ( 0.0000000000000000000, 0.0000000000000000000, -1.000000000000000000 ) ) ;
#186 = PLANE ( 'NONE',  #5 ) ;
#187 = PERSON_AND_ORGANIZATION ( #119, #14 ) ;
#188 = DIRECTION ( 'NONE',  ( 0.0000000000000000000, -0.0000000000000000000, 1.000000000000000000 ) ) ;
#189 =( NAMED_UNIT ( * ) SI_UNIT ( $, .STERADIAN. ) SOLID_ANGLE_UNIT ( ) );
#190 = PERSON_AND_ORGANIZATION_ROLE ( 'classification_officer' ) ;
#191 = CIRCLE ( 'NONE', #173, 19.05000000000000100 ) ;
#192 = PERSON_AND_ORGANIZATION ( #119, #14 ) ;
#193 = EDGE_CURVE ( 'NONE', #221, #129, #163, .T. ) ;
#194 = FACE_OUTER_BOUND ( 'NONE', #218, .T. ) ;
#195 = EDGE_CURVE ( 'NONE', #44, #102, #69, .T. ) ;
#196 = FACE_OUTER_BOUND ( 'NONE', #168, .T. ) ;
#197 = PERSON_AND_ORGANIZATION ( #119, #14 ) ;
#198 = ADVANCED_FACE ( 'NONE', ( #9 ), #186, .F. ) ;
#199 = PRODUCT_DEFINITION ( 'UNKNOWN', '', #246, #222 ) ;
#200 = DIRECTION ( 'NONE',  ( -0.0000000000000000000, -0.0000000000000000000, 1.000000000000000000 ) ) ;
#201 = APPROVAL_PERSON_ORGANIZATION ( #176, #32, #25 ) ;
#202 = DIRECTION ( 'NONE',  ( 1.000000000000000000, 0.0000000000000000000, 0.0000000000000000000 ) ) ;
#203 = EDGE_CURVE ( 'NONE', #129, #42, #206, .T. ) ;
#204 = CARTESIAN_POINT ( 'NONE',  ( 7.937500000000000000, 0.0000000000000000000, 0.0000000000000000000 ) ) ;
#205 = ADVANCED_FACE ( 'NONE', ( #144, #64 ), #252, .F. ) ;
#206 = LINE ( 'NONE', #208, #117 ) ;
#207 = CLOSED_SHELL ( 'NONE', ( #146, #247, #198, #47, #205, #72, #177 ) ) ;
#208 = CARTESIAN_POINT ( 'NONE',  ( 19.05000000000000100, 0.0000000000000000000, 0.0000000000000000000 ) ) ;
#209 = APPROVAL_ROLE ( '' ) ;
#210 = EDGE_CURVE ( 'NONE', #44, #107, #239, .T. ) ;
#211 = CC_DESIGN_PERSON_AND_ORGANIZATION_ASSIGNMENT ( #187, #114, ( #246 ) ) ;
#212 = VECTOR ( 'NONE', #251, 1000.000000000000000 ) ;
#213 = APPLICATION_PROTOCOL_DEFINITION ( 'international standard', 'config_control_design', 1994, #151 ) ;
#214 = PERSON_AND_ORGANIZATION_ROLE ( 'design_owner' ) ;
#215 = VECTOR ( 'NONE', #94, 1000.000000000000000 ) ;
#216 = PRODUCT_RELATED_PRODUCT_CATEGORY ( 'detail', '', ( #175 ) ) ;
#217 = CC_DESIGN_PERSON_AND_ORGANIZATION_ASSIGNMENT ( #192, #135, ( #199 ) ) ;
#218 = EDGE_LOOP ( 'NONE', ( #29, #79, #150, #182 ) ) ;
#219 = CIRCLE ( 'NONE', #86, 19.05000000000000100 ) ;
#220 = CALENDAR_DATE ( 2021, 14, 7 ) ;
#221 = VERTEX_POINT ( 'NONE', #225 ) ;
#222 = DESIGN_CONTEXT ( 'detailed design', #255, 'design' ) ;
#223 = EDGE_CURVE ( 'NONE', #221, #178, #67, .T. ) ;
#224 = SECURITY_CLASSIFICATION ( '', '', #172 ) ;
#225 = CARTESIAN_POINT ( 'NONE',  ( -19.05000000000000100, 2.332952152375708000E-015, -57.15000000000000600 ) ) ;
#226 = DIRECTION ( 'NONE',  ( -0.0000000000000000000, -0.0000000000000000000, 1.000000000000000000 ) ) ;
#227 = CYLINDRICAL_SURFACE ( 'NONE', #3, 7.937500000000000000 ) ;
#228 = CARTESIAN_POINT ( 'NONE',  ( 0.0000000000000000000, 7.937500000000000000, -44.45000000000000300 ) ) ;
#229 = DIRECTION ( 'NONE',  ( -1.000000000000000000, 0.0000000000000000000, -0.0000000000000000000 ) ) ;
#230 = ADVANCED_BREP_SHAPE_REPRESENTATION ( 'STP-201-021-4A400-001(WF-1.25-1.75)', ( #240, #101 ), #37 ) ;
#231 = CC_DESIGN_DATE_AND_TIME_ASSIGNMENT ( #46, #59, ( #199 ) ) ;
#232 = ORIENTED_EDGE ( 'NONE', *, *, #223, .F. ) ;
#233 = CC_DESIGN_APPROVAL ( #32, ( #224 ) ) ;
#234 = EDGE_LOOP ( 'NONE', ( #143, #100 ) ) ;
#235 = PERSON_AND_ORGANIZATION ( #119, #14 ) ;
#236 = DATE_TIME_ROLE ( 'classification_date' ) ;
#237 = AXIS2_PLACEMENT_3D ( 'NONE', #33, #188, #57 ) ;
#238 = ORIENTED_EDGE ( 'NONE', *, *, #35, .T. ) ;
#239 = LINE ( 'NONE', #53, #137 ) ;
#240 = MANIFOLD_SOLID_BREP ( '±ÛÂà1', #207 ) ;
#241 = AXIS2_PLACEMENT_3D ( 'NONE', #162, #226, #254 ) ;
#242 = DIRECTION ( 'NONE',  ( 1.000000000000000000, 0.0000000000000000000, 0.0000000000000000000 ) ) ;
#243 = CALENDAR_DATE ( 2021, 14, 7 ) ;
#244 = ORIENTED_EDGE ( 'NONE', *, *, #63, .T. ) ;
#245 = CARTESIAN_POINT ( 'NONE',  ( 0.0000000000000000000, 0.0000000000000000000, 0.0000000000000000000 ) ) ;
#246 = PRODUCT_DEFINITION_FORMATION_WITH_SPECIFIED_SOURCE ( 'ANY', '', #175, .NOT_KNOWN. ) ;
#247 = ADVANCED_FACE ( 'NONE', ( #194 ), #171, .T. ) ;
#248 = CARTESIAN_POINT ( 'NONE',  ( 7.937500000000000000, 0.0000000000000000000, -44.45000000000000300 ) ) ;
#249 = VERTEX_POINT ( 'NONE', #147 ) ;
#250 = DATE_AND_TIME ( #103, #99 ) ;
#251 = DIRECTION ( 'NONE',  ( -0.0000000000000000000, -0.0000000000000000000, 1.000000000000000000 ) ) ;
#252 = PLANE ( 'NONE',  #93 ) ;
#253 = APPROVAL_PERSON_ORGANIZATION ( #65, #136, #209 ) ;
#254 = DIRECTION ( 'NONE',  ( 1.000000000000000000, 0.0000000000000000000, 0.0000000000000000000 ) ) ;
#255 = APPLICATION_CONTEXT ( 'configuration controlled 3d designs of mechanical parts and assemblies' ) ;
ENDSEC;
END-ISO-10303-21;
