ISO-10303-21;
HEADER;
FILE_DESCRIPTION (( 'STEP AP203' ),
    '1' );
FILE_NAME ('STP-201-021-4A320-001(WF-1-1.75).STEP',
    '2021-07-14T05:19:25',
    ( '' ),
    ( '' ),
    'SwSTEP 2.0',
    'SolidWorks 2017',
    '' );
FILE_SCHEMA (( 'CONFIG_CONTROL_DESIGN' ));
ENDSEC;

DATA;
#1 = PERSON ( 'UNSPECIFIED', 'UNSPECIFIED', 'UNSPECIFIED', ('UNSPECIFIED'), ('UNSPECIFIED'), ('UNSPECIFIED') ) ;
#2 = DIRECTION ( 'NONE',  ( 0.0000000000000000000, -0.0000000000000000000, 1.000000000000000000 ) ) ;
#3 = FACE_OUTER_BOUND ( 'NONE', #78, .T. ) ;
#4 = DATE_AND_TIME ( #222, #33 ) ;
#5 = EDGE_LOOP ( 'NONE', ( #240, #192 ) ) ;
#6 = ADVANCED_FACE ( 'NONE', ( #163 ), #99, .F. ) ;
#7 = PERSON_AND_ORGANIZATION ( #1, #80 ) ;
#8 = CALENDAR_DATE ( 2021, 14, 7 ) ;
#9 = AXIS2_PLACEMENT_3D ( 'NONE', #199, #144, #223 ) ;
#10 = DIRECTION ( 'NONE',  ( -0.0000000000000000000, -0.0000000000000000000, 1.000000000000000000 ) ) ;
#11 = ORIENTED_EDGE ( 'NONE', *, *, #234, .F. ) ;
#12 = APPROVAL ( #136, 'UNSPECIFIED' ) ;
#13 = LOCAL_TIME ( 13, 19, 25.00000000000000000, #54 ) ;
#14 = PERSON_AND_ORGANIZATION ( #1, #80 ) ;
#15 = CARTESIAN_POINT ( 'NONE',  ( 0.0000000000000000000, 0.0000000000000000000, -53.84800000000000600 ) ) ;
#16 = APPROVAL ( #212, 'UNSPECIFIED' ) ;
#17 = DATE_TIME_ROLE ( 'classification_date' ) ;
#18 = APPLICATION_CONTEXT ( 'configuration controlled 3d designs of mechanical parts and assemblies' ) ;
#19 = DIRECTION ( 'NONE',  ( -1.000000000000000000, 0.0000000000000000000, -0.0000000000000000000 ) ) ;
#20 = DATE_TIME_ROLE ( 'creation_date' ) ;
#21 = CIRCLE ( 'NONE', #88, 6.349999999999999600 ) ;
#22 = COORDINATED_UNIVERSAL_TIME_OFFSET ( 8, 0, .AHEAD. ) ;
#23 = CARTESIAN_POINT ( 'NONE',  ( 0.0000000000000000000, 0.0000000000000000000, -44.45000000000000300 ) ) ;
#24 = VERTEX_POINT ( 'NONE', #186 ) ;
#25 = LINE ( 'NONE', #56, #160 ) ;
#26 = DIRECTION ( 'NONE',  ( 0.0000000000000000000, 0.0000000000000000000, -1.000000000000000000 ) ) ;
#27 = PRODUCT_RELATED_PRODUCT_CATEGORY ( 'detail', '', ( #237 ) ) ;
#28 = DIRECTION ( 'NONE',  ( -0.0000000000000000000, -0.0000000000000000000, 1.000000000000000000 ) ) ;
#29 = APPROVAL_PERSON_ORGANIZATION ( #7, #12, #131 ) ;
#30 = UNCERTAINTY_MEASURE_WITH_UNIT (LENGTH_MEASURE( 1.000000000000000100E-005 ), #180, 'distance_accuracy_value', 'NONE');
#31 = DIRECTION ( 'NONE',  ( -0.0000000000000000000, -0.0000000000000000000, 1.000000000000000000 ) ) ;
#32 = CYLINDRICAL_SURFACE ( 'NONE', #9, 6.349999999999999600 ) ;
#33 = LOCAL_TIME ( 13, 19, 25.00000000000000000, #127 ) ;
#34 = DIRECTION ( 'NONE',  ( 1.000000000000000000, 0.0000000000000000000, 0.0000000000000000000 ) ) ;
#35 = PERSON_AND_ORGANIZATION_ROLE ( 'creator' ) ;
#36 = CC_DESIGN_PERSON_AND_ORGANIZATION_ASSIGNMENT ( #87, #193, ( #207 ) ) ;
#37 = AXIS2_PLACEMENT_3D ( 'NONE', #112, #157, #38 ) ;
#38 = DIRECTION ( 'NONE',  ( 1.000000000000000000, 0.0000000000000000000, 0.0000000000000000000 ) ) ;
#39 = AXIS2_PLACEMENT_3D ( 'NONE', #145, #26, #124 ) ;
#40 = VECTOR ( 'NONE', #57, 1000.000000000000000 ) ;
#41 = ORIENTED_EDGE ( 'NONE', *, *, #130, .T. ) ;
#42 = ADVANCED_FACE ( 'NONE', ( #94 ), #32, .T. ) ;
#43 = CARTESIAN_POINT ( 'NONE',  ( 0.0000000000000000000, 15.08149999999999800, -53.84800000000000600 ) ) ;
#44 = VERTEX_POINT ( 'NONE', #201 ) ;
#45 = CARTESIAN_POINT ( 'NONE',  ( 15.08149999999999800, 0.0000000000000000000, -53.84800000000000600 ) ) ;
#46 = DIRECTION ( 'NONE',  ( -0.0000000000000000000, -0.0000000000000000000, 1.000000000000000000 ) ) ;
#47 = CC_DESIGN_DATE_AND_TIME_ASSIGNMENT ( #69, #20, ( #148 ) ) ;
#48 = CARTESIAN_POINT ( 'NONE',  ( 15.08149999999999800, 0.0000000000000000000, 0.0000000000000000000 ) ) ;
#49 = CIRCLE ( 'NONE', #172, 15.08149999999999800 ) ;
#50 = VERTEX_POINT ( 'NONE', #84 ) ;
#51 = CYLINDRICAL_SURFACE ( 'NONE', #206, 15.08149999999999800 ) ;
#52 = ADVANCED_BREP_SHAPE_REPRESENTATION ( 'STP-201-021-4A320-001(WF-1-1.75)', ( #150, #142 ), #65 ) ;
#53 = CARTESIAN_POINT ( 'NONE',  ( 0.0000000000000000000, 0.0000000000000000000, -53.84800000000000600 ) ) ;
#54 = COORDINATED_UNIVERSAL_TIME_OFFSET ( 8, 0, .AHEAD. ) ;
#55 = VERTEX_POINT ( 'NONE', #45 ) ;
#56 = CARTESIAN_POINT ( 'NONE',  ( -6.349999999999999600, 7.776507174585692200E-016, 0.0000000000000000000 ) ) ;
#57 = DIRECTION ( 'NONE',  ( -0.0000000000000000000, -0.0000000000000000000, 1.000000000000000000 ) ) ;
#58 = DIRECTION ( 'NONE',  ( -0.0000000000000000000, -0.0000000000000000000, 1.000000000000000000 ) ) ;
#59 = VERTEX_POINT ( 'NONE', #120 ) ;
#60 = AXIS2_PLACEMENT_3D ( 'NONE', #203, #149, #104 ) ;
#61 = DIRECTION ( 'NONE',  ( 1.000000000000000000, 0.0000000000000000000, 0.0000000000000000000 ) ) ;
#62 = FACE_OUTER_BOUND ( 'NONE', #161, .T. ) ;
#63 = ORIENTED_EDGE ( 'NONE', *, *, #152, .T. ) ;
#64 = PERSON_AND_ORGANIZATION_ROLE ( 'creator' ) ;
#65 =( GEOMETRIC_REPRESENTATION_CONTEXT ( 3 ) GLOBAL_UNCERTAINTY_ASSIGNED_CONTEXT ( ( #30 ) ) GLOBAL_UNIT_ASSIGNED_CONTEXT ( ( #180, #252, #215 ) ) REPRESENTATION_CONTEXT ( 'NONE', 'WORKASPACE' ) );
#66 = CLOSED_SHELL ( 'NONE', ( #184, #82, #118, #42, #239, #165, #6 ) ) ;
#67 = APPROVAL_PERSON_ORGANIZATION ( #14, #126, #218 ) ;
#68 = ORIENTED_EDGE ( 'NONE', *, *, #170, .T. ) ;
#69 = DATE_AND_TIME ( #117, #225 ) ;
#70 = CARTESIAN_POINT ( 'NONE',  ( 6.349999999999999600, 0.0000000000000000000, 0.0000000000000000000 ) ) ;
#71 = CARTESIAN_POINT ( 'NONE',  ( 0.0000000000000000000, 0.0000000000000000000, 0.0000000000000000000 ) ) ;
#72 = DATE_AND_TIME ( #238, #13 ) ;
#73 = EDGE_LOOP ( 'NONE', ( #96, #95, #11, #166 ) ) ;
#74 = APPROVAL_DATE_TIME ( #123, #12 ) ;
#75 = PERSON_AND_ORGANIZATION_ROLE ( 'design_supplier' ) ;
#76 = AXIS2_PLACEMENT_3D ( 'NONE', #53, #245, #85 ) ;
#77 = APPROVAL_STATUS ( 'not_yet_approved' ) ;
#78 = EDGE_LOOP ( 'NONE', ( #147, #231, #41, #116 ) ) ;
#79 = CIRCLE ( 'NONE', #249, 6.349999999999999600 ) ;
#80 = ORGANIZATION ( 'UNSPECIFIED', 'UNSPECIFIED', '' ) ;
#81 = EDGE_CURVE ( 'NONE', #50, #44, #83, .T. ) ;
#82 = ADVANCED_FACE ( 'NONE', ( #236 ), #230, .T. ) ;
#83 = CIRCLE ( 'NONE', #119, 15.08149999999999800 ) ;
#84 = CARTESIAN_POINT ( 'NONE',  ( 15.08149999999999800, 0.0000000000000000000, -44.45000000000000300 ) ) ;
#85 = DIRECTION ( 'NONE',  ( 1.000000000000000000, 0.0000000000000000000, 0.0000000000000000000 ) ) ;
#86 = PERSON_AND_ORGANIZATION ( #1, #80 ) ;
#87 = PERSON_AND_ORGANIZATION ( #1, #80 ) ;
#88 = AXIS2_PLACEMENT_3D ( 'NONE', #107, #227, #242 ) ;
#89 = AXIS2_PLACEMENT_3D ( 'NONE', #174, #58, #171 ) ;
#90 = ORIENTED_EDGE ( 'NONE', *, *, #130, .F. ) ;
#91 = DIRECTION ( 'NONE',  ( 0.0000000000000000000, 0.0000000000000000000, 1.000000000000000000 ) ) ;
#92 = MECHANICAL_CONTEXT ( 'NONE', #235, 'mechanical' ) ;
#93 = AXIS2_PLACEMENT_3D ( 'NONE', #43, #2, #122 ) ;
#94 = FACE_OUTER_BOUND ( 'NONE', #185, .T. ) ;
#95 = ORIENTED_EDGE ( 'NONE', *, *, #197, .T. ) ;
#96 = ORIENTED_EDGE ( 'NONE', *, *, #229, .T. ) ;
#97 = VECTOR ( 'NONE', #46, 1000.000000000000000 ) ;
#98 = CC_DESIGN_DATE_AND_TIME_ASSIGNMENT ( #72, #17, ( #207 ) ) ;
#99 = PLANE ( 'NONE',  #93 ) ;
#100 = ORIENTED_EDGE ( 'NONE', *, *, #197, .F. ) ;
#101 = CC_DESIGN_PERSON_AND_ORGANIZATION_ASSIGNMENT ( #167, #64, ( #148 ) ) ;
#102 = CC_DESIGN_SECURITY_CLASSIFICATION ( #207, ( #115 ) ) ;
#103 = DIRECTION ( 'NONE',  ( 1.000000000000000000, 0.0000000000000000000, 0.0000000000000000000 ) ) ;
#104 = DIRECTION ( 'NONE',  ( 1.000000000000000000, 0.0000000000000000000, 0.0000000000000000000 ) ) ;
#105 = EDGE_LOOP ( 'NONE', ( #63, #128, #253, #90 ) ) ;
#106 = PERSON_AND_ORGANIZATION ( #1, #80 ) ;
#107 = CARTESIAN_POINT ( 'NONE',  ( 0.0000000000000000000, 0.0000000000000000000, -44.45000000000000300 ) ) ;
#108 = DIRECTION ( 'NONE',  ( 1.000000000000000000, 0.0000000000000000000, 0.0000000000000000000 ) ) ;
#109 = VERTEX_POINT ( 'NONE', #70 ) ;
#110 = CARTESIAN_POINT ( 'NONE',  ( -15.08149999999999800, 1.846951070134080300E-015, -53.84800000000000600 ) ) ;
#111 = FACE_OUTER_BOUND ( 'NONE', #141, .T. ) ;
#112 = CARTESIAN_POINT ( 'NONE',  ( 0.0000000000000000000, 0.0000000000000000000, 0.0000000000000000000 ) ) ;
#113 = EDGE_CURVE ( 'NONE', #59, #198, #21, .T. ) ;
#114 = PERSON_AND_ORGANIZATION_ROLE ( 'design_owner' ) ;
#115 = PRODUCT_DEFINITION_FORMATION_WITH_SPECIFIED_SOURCE ( 'ANY', '', #237, .NOT_KNOWN. ) ;
#116 = ORIENTED_EDGE ( 'NONE', *, *, #205, .F. ) ;
#117 = CALENDAR_DATE ( 2021, 14, 7 ) ;
#118 = ADVANCED_FACE ( 'NONE', ( #62 ), #204, .F. ) ;
#119 = AXIS2_PLACEMENT_3D ( 'NONE', #23, #169, #187 ) ;
#120 = CARTESIAN_POINT ( 'NONE',  ( -6.349999999999999600, 7.776507174585692200E-016, -44.45000000000000300 ) ) ;
#121 = VECTOR ( 'NONE', #10, 1000.000000000000000 ) ;
#122 = DIRECTION ( 'NONE',  ( 1.000000000000000000, 0.0000000000000000000, 0.0000000000000000000 ) ) ;
#123 = DATE_AND_TIME ( #232, #209 ) ;
#124 = DIRECTION ( 'NONE',  ( -1.000000000000000000, 0.0000000000000000000, -0.0000000000000000000 ) ) ;
#125 = CARTESIAN_POINT ( 'NONE',  ( 6.349999999999999600, 0.0000000000000000000, 0.0000000000000000000 ) ) ;
#126 = APPROVAL ( #77, 'UNSPECIFIED' ) ;
#127 = COORDINATED_UNIVERSAL_TIME_OFFSET ( 8, 0, .AHEAD. ) ;
#128 = ORIENTED_EDGE ( 'NONE', *, *, #182, .T. ) ;
#129 = COORDINATED_UNIVERSAL_TIME_OFFSET ( 8, 0, .AHEAD. ) ;
#130 = EDGE_CURVE ( 'NONE', #55, #50, #181, .T. ) ;
#131 = APPROVAL_ROLE ( '' ) ;
#132 = LINE ( 'NONE', #243, #40 ) ;
#133 = APPROVAL_DATE_TIME ( #4, #16 ) ;
#134 = CC_DESIGN_PERSON_AND_ORGANIZATION_ASSIGNMENT ( #86, #114, ( #237 ) ) ;
#135 = CARTESIAN_POINT ( 'NONE',  ( 0.0000000000000000000, 0.0000000000000000000, -44.45000000000000300 ) ) ;
#136 = APPROVAL_STATUS ( 'not_yet_approved' ) ;
#137 = APPLICATION_PROTOCOL_DEFINITION ( 'international standard', 'config_control_design', 1994, #18 ) ;
#138 = EDGE_CURVE ( 'NONE', #24, #109, #190, .T. ) ;
#139 = ORIENTED_EDGE ( 'NONE', *, *, #81, .T. ) ;
#140 = SHAPE_DEFINITION_REPRESENTATION ( #217, #52 ) ;
#141 = EDGE_LOOP ( 'NONE', ( #139, #177 ) ) ;
#142 = AXIS2_PLACEMENT_3D ( 'NONE', #158, #91, #213 ) ;
#143 = CC_DESIGN_PERSON_AND_ORGANIZATION_ASSIGNMENT ( #254, #75, ( #115 ) ) ;
#144 = DIRECTION ( 'NONE',  ( -0.0000000000000000000, -0.0000000000000000000, 1.000000000000000000 ) ) ;
#145 = CARTESIAN_POINT ( 'NONE',  ( 0.0000000000000000000, 0.0000000000000000000, 0.0000000000000000000 ) ) ;
#146 = LINE ( 'NONE', #125, #97 ) ;
#147 = ORIENTED_EDGE ( 'NONE', *, *, #182, .F. ) ;
#148 = PRODUCT_DEFINITION ( 'UNKNOWN', '', #115, #208 ) ;
#149 = DIRECTION ( 'NONE',  ( -0.0000000000000000000, -0.0000000000000000000, 1.000000000000000000 ) ) ;
#150 = MANIFOLD_SOLID_BREP ( '±ÛÂà1', #66 ) ;
#151 = DIRECTION ( 'NONE',  ( 1.000000000000000000, 0.0000000000000000000, 0.0000000000000000000 ) ) ;
#152 = EDGE_CURVE ( 'NONE', #55, #214, #176, .T. ) ;
#153 = CYLINDRICAL_SURFACE ( 'NONE', #200, 15.08149999999999800 ) ;
#154 = COORDINATED_UNIVERSAL_TIME_OFFSET ( 8, 0, .AHEAD. ) ;
#155 = DIRECTION ( 'NONE',  ( -0.0000000000000000000, -0.0000000000000000000, 1.000000000000000000 ) ) ;
#156 = APPROVAL_ROLE ( '' ) ;
#157 = DIRECTION ( 'NONE',  ( -0.0000000000000000000, -0.0000000000000000000, 1.000000000000000000 ) ) ;
#158 = CARTESIAN_POINT ( 'NONE',  ( 0.0000000000000000000, 0.0000000000000000000, 0.0000000000000000000 ) ) ;
#159 = ORIENTED_EDGE ( 'NONE', *, *, #138, .T. ) ;
#160 = VECTOR ( 'NONE', #248, 1000.000000000000000 ) ;
#161 = EDGE_LOOP ( 'NONE', ( #224, #159 ) ) ;
#162 = APPROVAL_DATE_TIME ( #211, #126 ) ;
#163 = FACE_OUTER_BOUND ( 'NONE', #5, .T. ) ;
#164 = AXIS2_PLACEMENT_3D ( 'NONE', #241, #226, #103 ) ;
#165 = ADVANCED_FACE ( 'NONE', ( #3 ), #51, .T. ) ;
#166 = ORIENTED_EDGE ( 'NONE', *, *, #170, .F. ) ;
#167 = PERSON_AND_ORGANIZATION ( #1, #80 ) ;
#168 = EDGE_CURVE ( 'NONE', #214, #55, #49, .T. ) ;
#169 = DIRECTION ( 'NONE',  ( -0.0000000000000000000, -0.0000000000000000000, 1.000000000000000000 ) ) ;
#170 = EDGE_CURVE ( 'NONE', #198, #109, #146, .T. ) ;
#171 = DIRECTION ( 'NONE',  ( 1.000000000000000000, 0.0000000000000000000, 0.0000000000000000000 ) ) ;
#172 = AXIS2_PLACEMENT_3D ( 'NONE', #15, #31, #151 ) ;
#173 = CC_DESIGN_APPROVAL ( #126, ( #115 ) ) ;
#174 = CARTESIAN_POINT ( 'NONE',  ( 0.0000000000000000000, 0.0000000000000000000, -44.45000000000000300 ) ) ;
#175 = CC_DESIGN_APPROVAL ( #16, ( #207 ) ) ;
#176 = CIRCLE ( 'NONE', #76, 15.08149999999999800 ) ;
#177 = ORIENTED_EDGE ( 'NONE', *, *, #205, .T. ) ;
#178 = SECURITY_CLASSIFICATION_LEVEL ( 'unclassified' ) ;
#179 = DIRECTION ( 'NONE',  ( 0.0000000000000000000, 0.0000000000000000000, -1.000000000000000000 ) ) ;
#180 =( LENGTH_UNIT ( ) NAMED_UNIT ( * ) SI_UNIT ( .MILLI., .METRE. ) );
#181 = LINE ( 'NONE', #48, #121 ) ;
#182 = EDGE_CURVE ( 'NONE', #214, #44, #132, .T. ) ;
#183 = CIRCLE ( 'NONE', #89, 15.08149999999999800 ) ;
#184 = ADVANCED_FACE ( 'NONE', ( #251 ), #153, .T. ) ;
#185 = EDGE_LOOP ( 'NONE', ( #100, #246, #68, #194 ) ) ;
#186 = CARTESIAN_POINT ( 'NONE',  ( -6.349999999999999600, 7.776507174585692200E-016, 0.0000000000000000000 ) ) ;
#187 = DIRECTION ( 'NONE',  ( 1.000000000000000000, 0.0000000000000000000, 0.0000000000000000000 ) ) ;
#188 = CARTESIAN_POINT ( 'NONE',  ( 6.349999999999999600, 0.0000000000000000000, -44.45000000000000300 ) ) ;
#189 = CARTESIAN_POINT ( 'NONE',  ( 0.0000000000000000000, 6.349999999999999600, -44.45000000000000300 ) ) ;
#190 = CIRCLE ( 'NONE', #60, 6.349999999999999600 ) ;
#191 = APPROVAL_PERSON_ORGANIZATION ( #219, #16, #156 ) ;
#192 = ORIENTED_EDGE ( 'NONE', *, *, #168, .F. ) ;
#193 = PERSON_AND_ORGANIZATION_ROLE ( 'classification_officer' ) ;
#194 = ORIENTED_EDGE ( 'NONE', *, *, #138, .F. ) ;
#195 = APPLICATION_PROTOCOL_DEFINITION ( 'international standard', 'config_control_design', 1994, #235 ) ;
#196 = DIRECTION ( 'NONE',  ( -0.0000000000000000000, -0.0000000000000000000, 1.000000000000000000 ) ) ;
#197 = EDGE_CURVE ( 'NONE', #59, #24, #25, .T. ) ;
#198 = VERTEX_POINT ( 'NONE', #188 ) ;
#199 = CARTESIAN_POINT ( 'NONE',  ( 0.0000000000000000000, 0.0000000000000000000, 0.0000000000000000000 ) ) ;
#200 = AXIS2_PLACEMENT_3D ( 'NONE', #247, #155, #34 ) ;
#201 = CARTESIAN_POINT ( 'NONE',  ( -15.08149999999999800, 1.846951070134080300E-015, -44.45000000000000300 ) ) ;
#202 = CIRCLE ( 'NONE', #37, 6.349999999999999600 ) ;
#203 = CARTESIAN_POINT ( 'NONE',  ( 0.0000000000000000000, 0.0000000000000000000, 0.0000000000000000000 ) ) ;
#204 = PLANE ( 'NONE',  #39 ) ;
#205 = EDGE_CURVE ( 'NONE', #44, #50, #183, .T. ) ;
#206 = AXIS2_PLACEMENT_3D ( 'NONE', #71, #28, #108 ) ;
#207 = SECURITY_CLASSIFICATION ( '', '', #178 ) ;
#208 = DESIGN_CONTEXT ( 'detailed design', #18, 'design' ) ;
#209 = LOCAL_TIME ( 13, 19, 25.00000000000000000, #129 ) ;
#210 = ORIENTED_EDGE ( 'NONE', *, *, #229, .F. ) ;
#211 = DATE_AND_TIME ( #8, #221 ) ;
#212 = APPROVAL_STATUS ( 'not_yet_approved' ) ;
#213 = DIRECTION ( 'NONE',  ( 1.000000000000000000, 0.0000000000000000000, 0.0000000000000000000 ) ) ;
#214 = VERTEX_POINT ( 'NONE', #110 ) ;
#215 =( NAMED_UNIT ( * ) SI_UNIT ( $, .STERADIAN. ) SOLID_ANGLE_UNIT ( ) );
#216 = CC_DESIGN_PERSON_AND_ORGANIZATION_ASSIGNMENT ( #106, #35, ( #115 ) ) ;
#217 = PRODUCT_DEFINITION_SHAPE ( 'NONE', 'NONE',  #148 ) ;
#218 = APPROVAL_ROLE ( '' ) ;
#219 = PERSON_AND_ORGANIZATION ( #1, #80 ) ;
#220 = EDGE_LOOP ( 'NONE', ( #210, #250 ) ) ;
#221 = LOCAL_TIME ( 13, 19, 25.00000000000000000, #154 ) ;
#222 = CALENDAR_DATE ( 2021, 14, 7 ) ;
#223 = DIRECTION ( 'NONE',  ( 1.000000000000000000, 0.0000000000000000000, 0.0000000000000000000 ) ) ;
#224 = ORIENTED_EDGE ( 'NONE', *, *, #234, .T. ) ;
#225 = LOCAL_TIME ( 13, 19, 25.00000000000000000, #22 ) ;
#226 = DIRECTION ( 'NONE',  ( -0.0000000000000000000, -0.0000000000000000000, 1.000000000000000000 ) ) ;
#227 = DIRECTION ( 'NONE',  ( -0.0000000000000000000, -0.0000000000000000000, 1.000000000000000000 ) ) ;
#228 = AXIS2_PLACEMENT_3D ( 'NONE', #189, #179, #19 ) ;
#229 = EDGE_CURVE ( 'NONE', #198, #59, #79, .T. ) ;
#230 = CYLINDRICAL_SURFACE ( 'NONE', #164, 6.349999999999999600 ) ;
#231 = ORIENTED_EDGE ( 'NONE', *, *, #168, .T. ) ;
#232 = CALENDAR_DATE ( 2021, 14, 7 ) ;
#233 = PLANE ( 'NONE',  #228 ) ;
#234 = EDGE_CURVE ( 'NONE', #109, #24, #202, .T. ) ;
#235 = APPLICATION_CONTEXT ( 'configuration controlled 3d designs of mechanical parts and assemblies' ) ;
#236 = FACE_OUTER_BOUND ( 'NONE', #73, .T. ) ;
#237 = PRODUCT ( 'STP-201-021-4A320-001(WF-1-1.75)', 'STP-201-021-4A320-001(WF-1-1.75)', '', ( #92 ) ) ;
#238 = CALENDAR_DATE ( 2021, 14, 7 ) ;
#239 = ADVANCED_FACE ( 'NONE', ( #244, #111 ), #233, .F. ) ;
#240 = ORIENTED_EDGE ( 'NONE', *, *, #152, .F. ) ;
#241 = CARTESIAN_POINT ( 'NONE',  ( 0.0000000000000000000, 0.0000000000000000000, 0.0000000000000000000 ) ) ;
#242 = DIRECTION ( 'NONE',  ( 1.000000000000000000, 0.0000000000000000000, 0.0000000000000000000 ) ) ;
#243 = CARTESIAN_POINT ( 'NONE',  ( -15.08149999999999800, 1.846951070134080300E-015, 0.0000000000000000000 ) ) ;
#244 = FACE_BOUND ( 'NONE', #220, .T. ) ;
#245 = DIRECTION ( 'NONE',  ( -0.0000000000000000000, -0.0000000000000000000, 1.000000000000000000 ) ) ;
#246 = ORIENTED_EDGE ( 'NONE', *, *, #113, .T. ) ;
#247 = CARTESIAN_POINT ( 'NONE',  ( 0.0000000000000000000, 0.0000000000000000000, 0.0000000000000000000 ) ) ;
#248 = DIRECTION ( 'NONE',  ( -0.0000000000000000000, -0.0000000000000000000, 1.000000000000000000 ) ) ;
#249 = AXIS2_PLACEMENT_3D ( 'NONE', #135, #196, #61 ) ;
#250 = ORIENTED_EDGE ( 'NONE', *, *, #113, .F. ) ;
#251 = FACE_OUTER_BOUND ( 'NONE', #105, .T. ) ;
#252 =( NAMED_UNIT ( * ) PLANE_ANGLE_UNIT ( ) SI_UNIT ( $, .RADIAN. ) );
#253 = ORIENTED_EDGE ( 'NONE', *, *, #81, .F. ) ;
#254 = PERSON_AND_ORGANIZATION ( #1, #80 ) ;
#255 = CC_DESIGN_APPROVAL ( #12, ( #148 ) ) ;
ENDSEC;
END-ISO-10303-21;
