ISO-10303-21;
HEADER;
FILE_DESCRIPTION (( 'STEP AP203' ),
    '1' );
FILE_NAME ('STP-30041.STEP',
    '2019-01-30T06:50:35',
    ( '' ),
    ( '' ),
    'SwSTEP 2.0',
    'SolidWorks 2017',
    '' );
FILE_SCHEMA (( 'CONFIG_CONTROL_DESIGN' ));
ENDSEC;

DATA;
#1 = ORIENTED_EDGE ( 'NONE', *, *, #164, .F. ) ;
#2 = AXIS2_PLACEMENT_3D ( 'NONE', #313, #214, #26 ) ;
#3 = ORIENTED_EDGE ( 'NONE', *, *, #318, .F. ) ;
#4 = CC_DESIGN_APPROVAL ( #126, ( #114 ) ) ;
#5 = ORIENTED_EDGE ( 'NONE', *, *, #341, .T. ) ;
#6 = CARTESIAN_POINT ( 'NONE',  ( -7.196152422706631100, 9.304959711911485800E-016, -44.00000000000000000 ) ) ;
#7 = VECTOR ( 'NONE', #264, 1000.000000000000000 ) ;
#8 = EDGE_CURVE ( 'NONE', #9, #36, #173, .T. ) ;
#9 = VERTEX_POINT ( 'NONE', #30 ) ;
#10 = VERTEX_POINT ( 'NONE', #34 ) ;
#11 = AXIS2_PLACEMENT_3D ( 'NONE', #82, #155, #219 ) ;
#12 = FACE_OUTER_BOUND ( 'NONE', #151, .T. ) ;
#13 = PRODUCT_RELATED_PRODUCT_CATEGORY ( 'detail', '', ( #240 ) ) ;
#14 = VECTOR ( 'NONE', #306, 1000.000000000000000 ) ;
#15 = DIRECTION ( 'NONE',  ( -0.0000000000000000000, -0.0000000000000000000, 1.000000000000000000 ) ) ;
#16 = ADVANCED_FACE ( 'NONE', ( #33 ), #241, .F. ) ;
#17 = FACE_OUTER_BOUND ( 'NONE', #139, .T. ) ;
#18 = ORIENTED_EDGE ( 'NONE', *, *, #196, .F. ) ;
#19 = APPROVAL ( #281, 'UNSPECIFIED' ) ;
#20 = CARTESIAN_POINT ( 'NONE',  ( 0.0000000000000000000, 12.00000000000000000, -15.49999999999999600 ) ) ;
#21 = DATE_AND_TIME ( #257, #58 ) ;
#22 = AXIS2_PLACEMENT_3D ( 'NONE', #160, #172, #259 ) ;
#23 = ORIENTED_EDGE ( 'NONE', *, *, #45, .F. ) ;
#24 = LOCAL_TIME ( 14, 50, 35.00000000000000000, #67 ) ;
#25 = DIRECTION ( 'NONE',  ( -0.0000000000000000000, -0.0000000000000000000, 1.000000000000000000 ) ) ;
#26 = DIRECTION ( 'NONE',  ( 1.000000000000000000, 0.0000000000000000000, 0.0000000000000000000 ) ) ;
#27 = LINE ( 'NONE', #116, #48 ) ;
#28 = LINE ( 'NONE', #243, #189 ) ;
#29 = CARTESIAN_POINT ( 'NONE',  ( 0.0000000000000000000, 0.0000000000000000000, 2.939152317953647900E-015 ) ) ;
#30 = CARTESIAN_POINT ( 'NONE',  ( -8.000000000000000000, 9.797174393178825700E-016, -15.49999999999999800 ) ) ;
#31 = DIRECTION ( 'NONE',  ( 1.000000000000000000, 0.0000000000000000000, 0.0000000000000000000 ) ) ;
#32 = FACE_OUTER_BOUND ( 'NONE', #225, .T. ) ;
#33 = FACE_OUTER_BOUND ( 'NONE', #231, .T. ) ;
#34 = CARTESIAN_POINT ( 'NONE',  ( -12.00000000000000000, 1.469576158976823900E-015, 2.939152317953647900E-015 ) ) ;
#35 = AXIS2_PLACEMENT_3D ( 'NONE', #372, #55, #282 ) ;
#36 = VERTEX_POINT ( 'NONE', #233 ) ;
#37 = EDGE_CURVE ( 'NONE', #40, #10, #28, .T. ) ;
#38 = ORIENTED_EDGE ( 'NONE', *, *, #149, .T. ) ;
#39 = CARTESIAN_POINT ( 'NONE',  ( 0.0000000000000000000, 0.0000000000000000000, -44.00000000000000000 ) ) ;
#40 = VERTEX_POINT ( 'NONE', #230 ) ;
#41 = VECTOR ( 'NONE', #210, 1000.000000000000000 ) ;
#42 = APPROVAL_PERSON_ORGANIZATION ( #260, #126, #218 ) ;
#43 = EDGE_LOOP ( 'NONE', ( #77, #66 ) ) ;
#44 = LOCAL_TIME ( 14, 50, 35.00000000000000000, #273 ) ;
#45 = EDGE_CURVE ( 'NONE', #10, #347, #71, .T. ) ;
#46 = LINE ( 'NONE', #319, #7 ) ;
#47 = PERSON ( 'UNSPECIFIED', 'UNSPECIFIED', 'UNSPECIFIED', ('UNSPECIFIED'), ('UNSPECIFIED'), ('UNSPECIFIED') ) ;
#48 = VECTOR ( 'NONE', #90, 1000.000000000000000 ) ;
#49 = APPROVAL_PERSON_ORGANIZATION ( #236, #19, #148 ) ;
#50 = CIRCLE ( 'NONE', #268, 12.00000000000000000 ) ;
#51 = DIRECTION ( 'NONE',  ( -0.0000000000000000000, -0.0000000000000000000, 1.000000000000000000 ) ) ;
#52 = APPLICATION_CONTEXT ( 'configuration controlled 3d designs of mechanical parts and assemblies' ) ;
#53 = CYLINDRICAL_SURFACE ( 'NONE', #22, 12.00000000000000000 ) ;
#54 = CIRCLE ( 'NONE', #291, 5.999999999999994700 ) ;
#55 = DIRECTION ( 'NONE',  ( -0.0000000000000000000, -0.0000000000000000000, 1.000000000000000000 ) ) ;
#56 = ADVANCED_BREP_SHAPE_REPRESENTATION ( 'STP-30041', ( #86, #338 ), #277 ) ;
#57 = CIRCLE ( 'NONE', #2, 5.999999999999994700 ) ;
#58 = LOCAL_TIME ( 14, 50, 35.00000000000000000, #249 ) ;
#59 = CARTESIAN_POINT ( 'NONE',  ( 0.0000000000000000000, 0.0000000000000000000, 0.0000000000000000000 ) ) ;
#60 = DIRECTION ( 'NONE',  ( 1.000000000000000000, 0.0000000000000000000, 0.0000000000000000000 ) ) ;
#61 = DIRECTION ( 'NONE',  ( -0.0000000000000000000, -0.0000000000000000000, 1.000000000000000000 ) ) ;
#62 = EDGE_LOOP ( 'NONE', ( #153, #198, #65, #157 ) ) ;
#63 = CARTESIAN_POINT ( 'NONE',  ( 0.0000000000000000000, 0.0000000000000000000, -44.00000000000000000 ) ) ;
#64 = PLANE ( 'NONE',  #317 ) ;
#65 = ORIENTED_EDGE ( 'NONE', *, *, #325, .F. ) ;
#66 = ORIENTED_EDGE ( 'NONE', *, *, #8, .T. ) ;
#67 = COORDINATED_UNIVERSAL_TIME_OFFSET ( 8, 0, .AHEAD. ) ;
#68 = CC_DESIGN_APPROVAL ( #19, ( #168 ) ) ;
#69 = ORIENTED_EDGE ( 'NONE', *, *, #122, .F. ) ;
#70 = DIRECTION ( 'NONE',  ( 1.000000000000000000, 0.0000000000000000000, 0.0000000000000000000 ) ) ;
#71 = CIRCLE ( 'NONE', #274, 12.00000000000000000 ) ;
#72 = CARTESIAN_POINT ( 'NONE',  ( 0.0000000000000000000, 0.0000000000000000000, 0.0000000000000000000 ) ) ;
#73 = AXIS2_PLACEMENT_3D ( 'NONE', #94, #92, #60 ) ;
#74 = DIRECTION ( 'NONE',  ( 0.0000000000000000000, 0.0000000000000000000, -1.000000000000000000 ) ) ;
#75 = ORIENTED_EDGE ( 'NONE', *, *, #206, .T. ) ;
#76 = CARTESIAN_POINT ( 'NONE',  ( -8.000000000000000000, 9.797174393178825700E-016, 0.0000000000000000000 ) ) ;
#77 = ORIENTED_EDGE ( 'NONE', *, *, #325, .T. ) ;
#78 = DIRECTION ( 'NONE',  ( -1.000000000000000000, 0.0000000000000000000, -0.0000000000000000000 ) ) ;
#79 = ORGANIZATION ( 'UNSPECIFIED', 'UNSPECIFIED', '' ) ;
#80 = EDGE_CURVE ( 'NONE', #162, #9, #312, .T. ) ;
#81 = DATE_TIME_ROLE ( 'creation_date' ) ;
#82 = CARTESIAN_POINT ( 'NONE',  ( 0.0000000000000000000, 0.0000000000000000000, 0.0000000000000000000 ) ) ;
#83 = CARTESIAN_POINT ( 'NONE',  ( 0.0000000000000000000, 0.0000000000000000000, -2.311115933264683000E-030 ) ) ;
#84 = ORIENTED_EDGE ( 'NONE', *, *, #267, .T. ) ;
#85 = DIRECTION ( 'NONE',  ( -0.0000000000000000000, -0.0000000000000000000, 1.000000000000000000 ) ) ;
#86 = MANIFOLD_SOLID_BREP ( '°£®Æ-±ÛÂà1', #229 ) ;
#87 = FACE_BOUND ( 'NONE', #43, .T. ) ;
#88 = MECHANICAL_CONTEXT ( 'NONE', #52, 'mechanical' ) ;
#89 = CIRCLE ( 'NONE', #121, 12.00000000000000000 ) ;
#90 = DIRECTION ( 'NONE',  ( -0.0000000000000000000, -0.0000000000000000000, 1.000000000000000000 ) ) ;
#91 = PERSON_AND_ORGANIZATION_ROLE ( 'design_owner' ) ;
#92 = DIRECTION ( 'NONE',  ( -0.0000000000000000000, -0.0000000000000000000, 1.000000000000000000 ) ) ;
#93 = ORIENTED_EDGE ( 'NONE', *, *, #102, .T. ) ;
#94 = CARTESIAN_POINT ( 'NONE',  ( 0.0000000000000000000, 0.0000000000000000000, -40.99999999999999300 ) ) ;
#95 = APPLICATION_PROTOCOL_DEFINITION ( 'international standard', 'config_control_design', 1994, #52 ) ;
#96 = AXIS2_PLACEMENT_3D ( 'NONE', #343, #335, #238 ) ;
#97 = ORIENTED_EDGE ( 'NONE', *, *, #318, .T. ) ;
#98 = DIRECTION ( 'NONE',  ( -0.0000000000000000000, -0.0000000000000000000, 1.000000000000000000 ) ) ;
#99 = ORIENTED_EDGE ( 'NONE', *, *, #267, .F. ) ;
#100 = APPROVAL_DATE_TIME ( #111, #126 ) ;
#101 = CC_DESIGN_APPROVAL ( #336, ( #275 ) ) ;
#102 = EDGE_CURVE ( 'NONE', #347, #10, #89, .T. ) ;
#103 = DESIGN_CONTEXT ( 'detailed design', #119, 'design' ) ;
#104 =( NAMED_UNIT ( * ) PLANE_ANGLE_UNIT ( ) SI_UNIT ( $, .RADIAN. ) );
#105 = CONICAL_SURFACE ( 'NONE', #299, 7.196152422706631100, 0.2617993877991495700 ) ;
#106 = EDGE_CURVE ( 'NONE', #40, #272, #50, .T. ) ;
#107 = CARTESIAN_POINT ( 'NONE',  ( 0.0000000000000000000, 0.0000000000000000000, -15.49999999999999800 ) ) ;
#108 = PRODUCT_DEFINITION_SHAPE ( 'NONE', 'NONE',  #114 ) ;
#109 = DIRECTION ( 'NONE',  ( 1.000000000000000000, 0.0000000000000000000, 0.0000000000000000000 ) ) ;
#110 = ORIENTED_EDGE ( 'NONE', *, *, #102, .F. ) ;
#111 = DATE_AND_TIME ( #118, #201 ) ;
#112 = AXIS2_PLACEMENT_3D ( 'NONE', #29, #294, #307 ) ;
#113 = FACE_OUTER_BOUND ( 'NONE', #204, .T. ) ;
#114 = PRODUCT_DEFINITION ( 'UNKNOWN', '', #275, #103 ) ;
#115 = VERTEX_POINT ( 'NONE', #309 ) ;
#116 = CARTESIAN_POINT ( 'NONE',  ( 5.999999999999994700, 0.0000000000000000000, 2.939152317953647900E-015 ) ) ;
#117 = DIRECTION ( 'NONE',  ( -0.0000000000000000000, -0.0000000000000000000, 1.000000000000000000 ) ) ;
#118 = CALENDAR_DATE ( 2019, 30, 1 ) ;
#119 = APPLICATION_CONTEXT ( 'configuration controlled 3d designs of mechanical parts and assemblies' ) ;
#120 = ORIENTED_EDGE ( 'NONE', *, *, #341, .F. ) ;
#121 = AXIS2_PLACEMENT_3D ( 'NONE', #216, #161, #367 ) ;
#122 = EDGE_CURVE ( 'NONE', #115, #276, #177, .T. ) ;
#123 = CC_DESIGN_PERSON_AND_ORGANIZATION_ASSIGNMENT ( #266, #91, ( #240 ) ) ;
#124 = CARTESIAN_POINT ( 'NONE',  ( 0.0000000000000000000, 0.0000000000000000000, -44.00000000000000000 ) ) ;
#125 = EDGE_CURVE ( 'NONE', #272, #40, #190, .T. ) ;
#126 = APPROVAL ( #200, 'UNSPECIFIED' ) ;
#127 = EDGE_CURVE ( 'NONE', #162, #276, #146, .T. ) ;
#128 = CIRCLE ( 'NONE', #221, 5.999999999999994700 ) ;
#129 = PERSON_AND_ORGANIZATION_ROLE ( 'creator' ) ;
#130 = CARTESIAN_POINT ( 'NONE',  ( -8.000000000000000000, 9.797174393178825700E-016, -40.99999999999999300 ) ) ;
#131 = VERTEX_POINT ( 'NONE', #178 ) ;
#132 = CIRCLE ( 'NONE', #340, 7.196152422706631100 ) ;
#133 = DIRECTION ( 'NONE',  ( -0.0000000000000000000, -0.0000000000000000000, 1.000000000000000000 ) ) ;
#134 = AXIS2_PLACEMENT_3D ( 'NONE', #39, #280, #337 ) ;
#135 = DATE_AND_TIME ( #183, #24 ) ;
#136 = PERSON_AND_ORGANIZATION_ROLE ( 'creator' ) ;
#137 = DATE_AND_TIME ( #147, #145 ) ;
#138 = CARTESIAN_POINT ( 'NONE',  ( 0.0000000000000000000, 0.0000000000000000000, 2.939152317953647900E-015 ) ) ;
#139 = EDGE_LOOP ( 'NONE', ( #38, #247, #18, #69 ) ) ;
#140 = DIRECTION ( 'NONE',  ( 0.2588190451025209100, 0.0000000000000000000, 0.9659258262890682000 ) ) ;
#141 = VERTEX_POINT ( 'NONE', #284 ) ;
#142 = EDGE_CURVE ( 'NONE', #131, #141, #54, .T. ) ;
#143 = ADVANCED_FACE ( 'NONE', ( #113 ), #302, .T. ) ;
#144 = ORIENTED_EDGE ( 'NONE', *, *, #106, .T. ) ;
#145 = LOCAL_TIME ( 14, 50, 35.00000000000000000, #232 ) ;
#146 = CIRCLE ( 'NONE', #311, 8.000000000000000000 ) ;
#147 = CALENDAR_DATE ( 2019, 30, 1 ) ;
#148 = APPROVAL_ROLE ( '' ) ;
#149 = EDGE_CURVE ( 'NONE', #115, #334, #132, .T. ) ;
#150 = AXIS2_PLACEMENT_3D ( 'NONE', #72, #322, #342 ) ;
#151 = EDGE_LOOP ( 'NONE', ( #365, #235 ) ) ;
#152 = CARTESIAN_POINT ( 'NONE',  ( 0.0000000000000000000, 0.0000000000000000000, -40.99999999999999300 ) ) ;
#153 = ORIENTED_EDGE ( 'NONE', *, *, #196, .T. ) ;
#154 = VECTOR ( 'NONE', #242, 1000.000000000000000 ) ;
#155 = DIRECTION ( 'NONE',  ( -0.0000000000000000000, -0.0000000000000000000, 1.000000000000000000 ) ) ;
#156 = CC_DESIGN_PERSON_AND_ORGANIZATION_ASSIGNMENT ( #227, #129, ( #114 ) ) ;
#157 = ORIENTED_EDGE ( 'NONE', *, *, #206, .F. ) ;
#158 = EDGE_LOOP ( 'NONE', ( #279, #144, #329, #23 ) ) ;
#159 = CARTESIAN_POINT ( 'NONE',  ( 12.00000000000000000, 0.0000000000000000000, 0.0000000000000000000 ) ) ;
#160 = CARTESIAN_POINT ( 'NONE',  ( 0.0000000000000000000, 0.0000000000000000000, 0.0000000000000000000 ) ) ;
#161 = DIRECTION ( 'NONE',  ( -0.0000000000000000000, -0.0000000000000000000, 1.000000000000000000 ) ) ;
#162 = VERTEX_POINT ( 'NONE', #130 ) ;
#163 = CARTESIAN_POINT ( 'NONE',  ( 0.0000000000000000000, 0.0000000000000000000, -15.49999999999999800 ) ) ;
#164 = EDGE_CURVE ( 'NONE', #272, #347, #333, .T. ) ;
#165 = DIRECTION ( 'NONE',  ( -0.0000000000000000000, -0.0000000000000000000, 1.000000000000000000 ) ) ;
#166 = DIRECTION ( 'NONE',  ( 1.000000000000000000, 0.0000000000000000000, 0.0000000000000000000 ) ) ;
#167 = EDGE_LOOP ( 'NONE', ( #220, #262, #110, #1 ) ) ;
#168 = SECURITY_CLASSIFICATION ( '', '', #327 ) ;
#169 = APPROVAL_DATE_TIME ( #135, #19 ) ;
#170 = AXIS2_PLACEMENT_3D ( 'NONE', #308, #328, #350 ) ;
#171 = ORIENTED_EDGE ( 'NONE', *, *, #80, .F. ) ;
#172 = DIRECTION ( 'NONE',  ( -0.0000000000000000000, -0.0000000000000000000, 1.000000000000000000 ) ) ;
#173 = CIRCLE ( 'NONE', #288, 8.000000000000000000 ) ;
#174 = CARTESIAN_POINT ( 'NONE',  ( 12.00000000000000000, 0.0000000000000000000, 2.939152317953647900E-015 ) ) ;
#175 = DIRECTION ( 'NONE',  ( -0.0000000000000000000, -0.0000000000000000000, 1.000000000000000000 ) ) ;
#176 = FACE_OUTER_BOUND ( 'NONE', #158, .T. ) ;
#177 = LINE ( 'NONE', #253, #285 ) ;
#178 = CARTESIAN_POINT ( 'NONE',  ( 5.999999999999994700, 0.0000000000000000000, -2.311115933264683000E-030 ) ) ;
#179 = ORIENTED_EDGE ( 'NONE', *, *, #122, .T. ) ;
#180 = FACE_OUTER_BOUND ( 'NONE', #289, .T. ) ;
#181 = CARTESIAN_POINT ( 'NONE',  ( 0.0000000000000000000, 0.0000000000000000000, -44.00000000000000000 ) ) ;
#182 = ADVANCED_FACE ( 'NONE', ( #356 ), #376, .T. ) ;
#183 = CALENDAR_DATE ( 2019, 30, 1 ) ;
#184 = DIRECTION ( 'NONE',  ( 1.000000000000000000, 0.0000000000000000000, 0.0000000000000000000 ) ) ;
#185 = DIRECTION ( 'NONE',  ( 1.000000000000000000, 0.0000000000000000000, 0.0000000000000000000 ) ) ;
#186 = CIRCLE ( 'NONE', #134, 5.999999999999994700 ) ;
#187 = AXIS2_PLACEMENT_3D ( 'NONE', #163, #165, #244 ) ;
#188 = PLANE ( 'NONE',  #355 ) ;
#189 = VECTOR ( 'NONE', #245, 1000.000000000000000 ) ;
#190 = CIRCLE ( 'NONE', #96, 12.00000000000000000 ) ;
#191 = ADVANCED_FACE ( 'NONE', ( #209, #223 ), #361, .F. ) ;
#192 = EDGE_LOOP ( 'NONE', ( #5, #316 ) ) ;
#193 = ADVANCED_FACE ( 'NONE', ( #351 ), #320, .T. ) ;
#194 = APPROVAL_DATE_TIME ( #379, #336 ) ;
#195 = ADVANCED_FACE ( 'NONE', ( #293, #180 ), #64, .F. ) ;
#196 = EDGE_CURVE ( 'NONE', #276, #162, #353, .T. ) ;
#197 =( NAMED_UNIT ( * ) SI_UNIT ( $, .STERADIAN. ) SOLID_ANGLE_UNIT ( ) );
#198 = ORIENTED_EDGE ( 'NONE', *, *, #80, .T. ) ;
#199 = UNCERTAINTY_MEASURE_WITH_UNIT (LENGTH_MEASURE( 1.000000000000000100E-005 ), #224, 'distance_accuracy_value', 'NONE');
#200 = APPROVAL_STATUS ( 'not_yet_approved' ) ;
#201 = LOCAL_TIME ( 14, 50, 35.00000000000000000, #252 ) ;
#202 = EDGE_CURVE ( 'NONE', #334, #115, #251, .T. ) ;
#203 = FACE_OUTER_BOUND ( 'NONE', #298, .T. ) ;
#204 = EDGE_LOOP ( 'NONE', ( #171, #296, #75, #237 ) ) ;
#205 = ADVANCED_FACE ( 'NONE', ( #32 ), #105, .T. ) ;
#206 = EDGE_CURVE ( 'NONE', #276, #36, #46, .T. ) ;
#207 = ADVANCED_FACE ( 'NONE', ( #176 ), #53, .T. ) ;
#208 = ADVANCED_FACE ( 'NONE', ( #12, #87 ), #188, .F. ) ;
#209 = FACE_BOUND ( 'NONE', #192, .T. ) ;
#210 = DIRECTION ( 'NONE',  ( -0.0000000000000000000, -0.0000000000000000000, 1.000000000000000000 ) ) ;
#211 = DIRECTION ( 'NONE',  ( 1.000000000000000000, 0.0000000000000000000, 0.0000000000000000000 ) ) ;
#212 = CARTESIAN_POINT ( 'NONE',  ( 0.0000000000000000000, 0.0000000000000000000, 1.469576158976823900E-015 ) ) ;
#213 = ADVANCED_FACE ( 'NONE', ( #17 ), #345, .T. ) ;
#214 = DIRECTION ( 'NONE',  ( -0.0000000000000000000, -0.0000000000000000000, 1.000000000000000000 ) ) ;
#215 = SHAPE_DEFINITION_REPRESENTATION ( #108, #56 ) ;
#216 = CARTESIAN_POINT ( 'NONE',  ( 0.0000000000000000000, 0.0000000000000000000, 2.939152317953647900E-015 ) ) ;
#217 = CYLINDRICAL_SURFACE ( 'NONE', #112, 5.999999999999994700 ) ;
#218 = APPROVAL_ROLE ( '' ) ;
#219 = DIRECTION ( 'NONE',  ( 1.000000000000000000, 0.0000000000000000000, 0.0000000000000000000 ) ) ;
#220 = ORIENTED_EDGE ( 'NONE', *, *, #125, .T. ) ;
#221 = AXIS2_PLACEMENT_3D ( 'NONE', #324, #85, #370 ) ;
#222 = CARTESIAN_POINT ( 'NONE',  ( 12.00000000000000000, 0.0000000000000000000, -15.49999999999999600 ) ) ;
#223 = FACE_OUTER_BOUND ( 'NONE', #354, .T. ) ;
#224 =( LENGTH_UNIT ( ) NAMED_UNIT ( * ) SI_UNIT ( .MILLI., .METRE. ) );
#225 = EDGE_LOOP ( 'NONE', ( #255, #323, #179, #363 ) ) ;
#226 = CARTESIAN_POINT ( 'NONE',  ( -5.999999999999994700, 7.347880794884112800E-016, 2.939152317953647900E-015 ) ) ;
#227 = PERSON_AND_ORGANIZATION ( #47, #79 ) ;
#228 = PERSON_AND_ORGANIZATION ( #47, #79 ) ;
#229 = CLOSED_SHELL ( 'NONE', ( #278, #213, #193, #182, #195, #207, #208, #143, #205, #191, #16 ) ) ;
#230 = CARTESIAN_POINT ( 'NONE',  ( -12.00000000000000000, 1.469576158976823900E-015, -15.49999999999999600 ) ) ;
#231 = EDGE_LOOP ( 'NONE', ( #286, #120, #84, #330 ) ) ;
#232 = COORDINATED_UNIVERSAL_TIME_OFFSET ( 8, 0, .AHEAD. ) ;
#233 = CARTESIAN_POINT ( 'NONE',  ( 8.000000000000000000, 0.0000000000000000000, -15.49999999999999800 ) ) ;
#234 = DIRECTION ( 'NONE',  ( -0.0000000000000000000, -0.0000000000000000000, 1.000000000000000000 ) ) ;
#235 = ORIENTED_EDGE ( 'NONE', *, *, #106, .F. ) ;
#236 = PERSON_AND_ORGANIZATION ( #47, #79 ) ;
#237 = ORIENTED_EDGE ( 'NONE', *, *, #8, .F. ) ;
#238 = DIRECTION ( 'NONE',  ( 1.000000000000000000, 0.0000000000000000000, 0.0000000000000000000 ) ) ;
#239 = LINE ( 'NONE', #263, #154 ) ;
#240 = PRODUCT ( 'STP-30041', 'STP-30041', '', ( #88 ) ) ;
#241 = CYLINDRICAL_SURFACE ( 'NONE', #35, 5.999999999999994700 ) ;
#242 = DIRECTION ( 'NONE',  ( -0.2588190451025209100, 3.169619151431766800E-017, 0.9659258262890682000 ) ) ;
#243 = CARTESIAN_POINT ( 'NONE',  ( -12.00000000000000000, 1.469576158976823900E-015, 0.0000000000000000000 ) ) ;
#244 = DIRECTION ( 'NONE',  ( 1.000000000000000000, 0.0000000000000000000, 0.0000000000000000000 ) ) ;
#245 = DIRECTION ( 'NONE',  ( -0.0000000000000000000, -0.0000000000000000000, 1.000000000000000000 ) ) ;
#246 = AXIS2_PLACEMENT_3D ( 'NONE', #59, #61, #360 ) ;
#247 = ORIENTED_EDGE ( 'NONE', *, *, #304, .T. ) ;
#248 = CARTESIAN_POINT ( 'NONE',  ( 0.0000000000000000000, 0.0000000000000000000, -44.00000000000000000 ) ) ;
#249 = COORDINATED_UNIVERSAL_TIME_OFFSET ( 8, 0, .AHEAD. ) ;
#250 = CARTESIAN_POINT ( 'NONE',  ( -5.999999999999994700, 7.347880794884112800E-016, -44.00000000000000000 ) ) ;
#251 = CIRCLE ( 'NONE', #332, 7.196152422706631100 ) ;
#252 = COORDINATED_UNIVERSAL_TIME_OFFSET ( 8, 0, .AHEAD. ) ;
#253 = CARTESIAN_POINT ( 'NONE',  ( 7.196152422706631100, 0.0000000000000000000, -44.00000000000000000 ) ) ;
#254 = EDGE_CURVE ( 'NONE', #339, #141, #331, .T. ) ;
#255 = ORIENTED_EDGE ( 'NONE', *, *, #304, .F. ) ;
#256 = VECTOR ( 'NONE', #377, 1000.000000000000000 ) ;
#257 = CALENDAR_DATE ( 2019, 30, 1 ) ;
#258 = APPLICATION_PROTOCOL_DEFINITION ( 'international standard', 'config_control_design', 1994, #119 ) ;
#259 = DIRECTION ( 'NONE',  ( 1.000000000000000000, 0.0000000000000000000, 0.0000000000000000000 ) ) ;
#260 = PERSON_AND_ORGANIZATION ( #47, #79 ) ;
#261 = EDGE_CURVE ( 'NONE', #339, #326, #186, .T. ) ;
#262 = ORIENTED_EDGE ( 'NONE', *, *, #37, .T. ) ;
#263 = CARTESIAN_POINT ( 'NONE',  ( -7.196152422706631100, 8.812745030644147900E-016, -44.00000000000000000 ) ) ;
#264 = DIRECTION ( 'NONE',  ( -0.0000000000000000000, -0.0000000000000000000, 1.000000000000000000 ) ) ;
#265 = ORIENTED_EDGE ( 'NONE', *, *, #261, .F. ) ;
#266 = PERSON_AND_ORGANIZATION ( #47, #79 ) ;
#267 = EDGE_CURVE ( 'NONE', #326, #131, #27, .T. ) ;
#268 = AXIS2_PLACEMENT_3D ( 'NONE', #301, #15, #211 ) ;
#269 = CC_DESIGN_SECURITY_CLASSIFICATION ( #168, ( #275 ) ) ;
#270 = ORIENTED_EDGE ( 'NONE', *, *, #45, .T. ) ;
#271 = CIRCLE ( 'NONE', #187, 8.000000000000000000 ) ;
#272 = VERTEX_POINT ( 'NONE', #222 ) ;
#273 = COORDINATED_UNIVERSAL_TIME_OFFSET ( 8, 0, .AHEAD. ) ;
#274 = AXIS2_PLACEMENT_3D ( 'NONE', #138, #25, #31 ) ;
#275 = PRODUCT_DEFINITION_FORMATION_WITH_SPECIFIED_SOURCE ( 'ANY', '', #240, .NOT_KNOWN. ) ;
#276 = VERTEX_POINT ( 'NONE', #300 ) ;
#277 =( GEOMETRIC_REPRESENTATION_CONTEXT ( 3 ) GLOBAL_UNCERTAINTY_ASSIGNED_CONTEXT ( ( #199 ) ) GLOBAL_UNIT_ASSIGNED_CONTEXT ( ( #224, #104, #197 ) ) REPRESENTATION_CONTEXT ( 'NONE', 'WORKASPACE' ) );
#278 = ADVANCED_FACE ( 'NONE', ( #203 ), #217, .F. ) ;
#279 = ORIENTED_EDGE ( 'NONE', *, *, #37, .F. ) ;
#280 = DIRECTION ( 'NONE',  ( -0.0000000000000000000, -0.0000000000000000000, 1.000000000000000000 ) ) ;
#281 = APPROVAL_STATUS ( 'not_yet_approved' ) ;
#282 = DIRECTION ( 'NONE',  ( 1.000000000000000000, 0.0000000000000000000, 0.0000000000000000000 ) ) ;
#283 = DIRECTION ( 'NONE',  ( 0.0000000000000000000, 0.0000000000000000000, 1.000000000000000000 ) ) ;
#284 = CARTESIAN_POINT ( 'NONE',  ( -5.999999999999994700, 7.347880794884112800E-016, -2.311115933264683000E-030 ) ) ;
#285 = VECTOR ( 'NONE', #140, 1000.000000000000000 ) ;
#286 = ORIENTED_EDGE ( 'NONE', *, *, #254, .F. ) ;
#287 = DIRECTION ( 'NONE',  ( 0.0000000000000000000, -0.0000000000000000000, 1.000000000000000000 ) ) ;
#288 = AXIS2_PLACEMENT_3D ( 'NONE', #107, #303, #362 ) ;
#289 = EDGE_LOOP ( 'NONE', ( #93, #270 ) ) ;
#290 = CC_DESIGN_PERSON_AND_ORGANIZATION_ASSIGNMENT ( #321, #378, ( #275 ) ) ;
#291 = AXIS2_PLACEMENT_3D ( 'NONE', #83, #98, #109 ) ;
#292 = APPROVAL_PERSON_ORGANIZATION ( #228, #336, #346 ) ;
#293 = FACE_BOUND ( 'NONE', #359, .T. ) ;
#294 = DIRECTION ( 'NONE',  ( -0.0000000000000000000, -0.0000000000000000000, 1.000000000000000000 ) ) ;
#295 = CARTESIAN_POINT ( 'NONE',  ( 5.999999999999994700, 0.0000000000000000000, -44.00000000000000000 ) ) ;
#296 = ORIENTED_EDGE ( 'NONE', *, *, #127, .T. ) ;
#297 = CC_DESIGN_DATE_AND_TIME_ASSIGNMENT ( #21, #310, ( #168 ) ) ;
#298 = EDGE_LOOP ( 'NONE', ( #265, #366, #97, #99 ) ) ;
#299 = AXIS2_PLACEMENT_3D ( 'NONE', #63, #133, #368 ) ;
#300 = CARTESIAN_POINT ( 'NONE',  ( 8.000000000000000000, 0.0000000000000000000, -40.99999999999999300 ) ) ;
#301 = CARTESIAN_POINT ( 'NONE',  ( 0.0000000000000000000, 0.0000000000000000000, -15.49999999999999600 ) ) ;
#302 = CYLINDRICAL_SURFACE ( 'NONE', #11, 8.000000000000000000 ) ;
#303 = DIRECTION ( 'NONE',  ( -0.0000000000000000000, -0.0000000000000000000, 1.000000000000000000 ) ) ;
#304 = EDGE_CURVE ( 'NONE', #334, #162, #239, .T. ) ;
#305 = CC_DESIGN_DATE_AND_TIME_ASSIGNMENT ( #137, #81, ( #114 ) ) ;
#306 = DIRECTION ( 'NONE',  ( -0.0000000000000000000, -0.0000000000000000000, 1.000000000000000000 ) ) ;
#307 = DIRECTION ( 'NONE',  ( 1.000000000000000000, 0.0000000000000000000, 0.0000000000000000000 ) ) ;
#308 = CARTESIAN_POINT ( 'NONE',  ( 0.0000000000000000000, 7.196152422706631100, -44.00000000000000000 ) ) ;
#309 = CARTESIAN_POINT ( 'NONE',  ( 7.196152422706631100, 0.0000000000000000000, -44.00000000000000000 ) ) ;
#310 = DATE_TIME_ROLE ( 'classification_date' ) ;
#311 = AXIS2_PLACEMENT_3D ( 'NONE', #152, #51, #70 ) ;
#312 = LINE ( 'NONE', #76, #14 ) ;
#313 = CARTESIAN_POINT ( 'NONE',  ( 0.0000000000000000000, 0.0000000000000000000, -2.311115933264683000E-030 ) ) ;
#314 = PERSON_AND_ORGANIZATION ( #47, #79 ) ;
#315 = CC_DESIGN_PERSON_AND_ORGANIZATION_ASSIGNMENT ( #314, #136, ( #275 ) ) ;
#316 = ORIENTED_EDGE ( 'NONE', *, *, #261, .T. ) ;
#317 = AXIS2_PLACEMENT_3D ( 'NONE', #212, #74, #78 ) ;
#318 = EDGE_CURVE ( 'NONE', #141, #131, #57, .T. ) ;
#319 = CARTESIAN_POINT ( 'NONE',  ( 8.000000000000000000, 0.0000000000000000000, 0.0000000000000000000 ) ) ;
#320 = CYLINDRICAL_SURFACE ( 'NONE', #246, 8.000000000000000000 ) ;
#321 = PERSON_AND_ORGANIZATION ( #47, #79 ) ;
#322 = DIRECTION ( 'NONE',  ( -0.0000000000000000000, -0.0000000000000000000, 1.000000000000000000 ) ) ;
#323 = ORIENTED_EDGE ( 'NONE', *, *, #202, .T. ) ;
#324 = CARTESIAN_POINT ( 'NONE',  ( 0.0000000000000000000, 0.0000000000000000000, -44.00000000000000000 ) ) ;
#325 = EDGE_CURVE ( 'NONE', #36, #9, #271, .T. ) ;
#326 = VERTEX_POINT ( 'NONE', #295 ) ;
#327 = SECURITY_CLASSIFICATION_LEVEL ( 'unclassified' ) ;
#328 = DIRECTION ( 'NONE',  ( 0.0000000000000000000, -0.0000000000000000000, 1.000000000000000000 ) ) ;
#329 = ORIENTED_EDGE ( 'NONE', *, *, #164, .T. ) ;
#330 = ORIENTED_EDGE ( 'NONE', *, *, #142, .T. ) ;
#331 = LINE ( 'NONE', #226, #256 ) ;
#332 = AXIS2_PLACEMENT_3D ( 'NONE', #248, #175, #166 ) ;
#333 = LINE ( 'NONE', #159, #41 ) ;
#334 = VERTEX_POINT ( 'NONE', #6 ) ;
#335 = DIRECTION ( 'NONE',  ( -0.0000000000000000000, -0.0000000000000000000, 1.000000000000000000 ) ) ;
#336 = APPROVAL ( #349, 'UNSPECIFIED' ) ;
#337 = DIRECTION ( 'NONE',  ( 1.000000000000000000, 0.0000000000000000000, 0.0000000000000000000 ) ) ;
#338 = AXIS2_PLACEMENT_3D ( 'NONE', #371, #283, #374 ) ;
#339 = VERTEX_POINT ( 'NONE', #250 ) ;
#340 = AXIS2_PLACEMENT_3D ( 'NONE', #181, #234, #352 ) ;
#341 = EDGE_CURVE ( 'NONE', #326, #339, #128, .T. ) ;
#342 = DIRECTION ( 'NONE',  ( 1.000000000000000000, 0.0000000000000000000, 0.0000000000000000000 ) ) ;
#343 = CARTESIAN_POINT ( 'NONE',  ( 0.0000000000000000000, 0.0000000000000000000, -15.49999999999999600 ) ) ;
#344 = ORIENTED_EDGE ( 'NONE', *, *, #202, .F. ) ;
#345 = CONICAL_SURFACE ( 'NONE', #373, 7.196152422706631100, 0.2617993877991495700 ) ;
#346 = APPROVAL_ROLE ( '' ) ;
#347 = VERTEX_POINT ( 'NONE', #174 ) ;
#348 = CALENDAR_DATE ( 2019, 30, 1 ) ;
#349 = APPROVAL_STATUS ( 'not_yet_approved' ) ;
#350 = DIRECTION ( 'NONE',  ( 1.000000000000000000, 0.0000000000000000000, 0.0000000000000000000 ) ) ;
#351 = FACE_OUTER_BOUND ( 'NONE', #62, .T. ) ;
#352 = DIRECTION ( 'NONE',  ( 1.000000000000000000, 0.0000000000000000000, 0.0000000000000000000 ) ) ;
#353 = CIRCLE ( 'NONE', #73, 8.000000000000000000 ) ;
#354 = EDGE_LOOP ( 'NONE', ( #375, #344 ) ) ;
#355 = AXIS2_PLACEMENT_3D ( 'NONE', #20, #287, #184 ) ;
#356 = FACE_OUTER_BOUND ( 'NONE', #167, .T. ) ;
#357 = PERSON_AND_ORGANIZATION_ROLE ( 'classification_officer' ) ;
#358 = CC_DESIGN_PERSON_AND_ORGANIZATION_ASSIGNMENT ( #364, #357, ( #168 ) ) ;
#359 = EDGE_LOOP ( 'NONE', ( #369, #3 ) ) ;
#360 = DIRECTION ( 'NONE',  ( 1.000000000000000000, 0.0000000000000000000, 0.0000000000000000000 ) ) ;
#361 = PLANE ( 'NONE',  #170 ) ;
#362 = DIRECTION ( 'NONE',  ( 1.000000000000000000, 0.0000000000000000000, 0.0000000000000000000 ) ) ;
#363 = ORIENTED_EDGE ( 'NONE', *, *, #127, .F. ) ;
#364 = PERSON_AND_ORGANIZATION ( #47, #79 ) ;
#365 = ORIENTED_EDGE ( 'NONE', *, *, #125, .F. ) ;
#366 = ORIENTED_EDGE ( 'NONE', *, *, #254, .T. ) ;
#367 = DIRECTION ( 'NONE',  ( 1.000000000000000000, 0.0000000000000000000, 0.0000000000000000000 ) ) ;
#368 = DIRECTION ( 'NONE',  ( 1.000000000000000000, 0.0000000000000000000, 0.0000000000000000000 ) ) ;
#369 = ORIENTED_EDGE ( 'NONE', *, *, #142, .F. ) ;
#370 = DIRECTION ( 'NONE',  ( 1.000000000000000000, 0.0000000000000000000, 0.0000000000000000000 ) ) ;
#371 = CARTESIAN_POINT ( 'NONE',  ( 0.0000000000000000000, 0.0000000000000000000, 0.0000000000000000000 ) ) ;
#372 = CARTESIAN_POINT ( 'NONE',  ( 0.0000000000000000000, 0.0000000000000000000, 2.939152317953647900E-015 ) ) ;
#373 = AXIS2_PLACEMENT_3D ( 'NONE', #124, #117, #185 ) ;
#374 = DIRECTION ( 'NONE',  ( 1.000000000000000000, 0.0000000000000000000, 0.0000000000000000000 ) ) ;
#375 = ORIENTED_EDGE ( 'NONE', *, *, #149, .F. ) ;
#376 = CYLINDRICAL_SURFACE ( 'NONE', #150, 12.00000000000000000 ) ;
#377 = DIRECTION ( 'NONE',  ( -0.0000000000000000000, -0.0000000000000000000, 1.000000000000000000 ) ) ;
#378 = PERSON_AND_ORGANIZATION_ROLE ( 'design_supplier' ) ;
#379 = DATE_AND_TIME ( #348, #44 ) ;
ENDSEC;
END-ISO-10303-21;
